Accueil         Home  


         La Musique en Liberté sur Twitter                                


  Contact  

 La Musique en Liberté . COM 





Against The Current - silent stranger










 Français: DO	RE	MI	FA	SOL	LA	SI
English:   C	D	E	F	G	A	B

Chordify App is
at the bottom
l'App Chordify est
tout en bas
[Intro]
Eb Gm F F

   Eb                          F     Gm
E|---------------------------------|---------------------------------|
B|---------------------------------|---------------------------------|
G|---------------------------------|---------------------------------|
D|-1-1-1-1-1-1-1-1-1-1-1-1-1-1-3-3-|-5-5-5-5-5-5-5-5-5-5-5-5-5-5-5-5-|
A|-1-1-1-1-1-1-1-1-1-1-1-1-1-1-3-3-|-5-5-5-5-5-5-5-5-5-5-5-5-5-5-5-5-|
D|-1-1-1-1-1-1-1-1-1-1-1-1-1-1-3-3-|-5-5-5-5-5-5-5-5-5-5-5-5-5-5-5-5-|

 F                                 F                F/Bb    F/A
---------------------------------|----------------------------------|
---------------------------------|----------------------------------|
---------------------------------|----------------------------------|
-3-3-3-3-3-3-3-3-3-3-3-3-3-3-3-3-|-3-3-3-3-3-3-3-3------------------|
-3-3-3-3-3-3-3-3-3-3-3-3-3-3-3-3-|-3-3-3-3-3-3-3-3------------8-6---|
-3-3-3-3-3-3-3-3-3-3-3-3-3-3-3-3-|-3-3-3-3-3-3-3-3-/8-8-8-8-7-----7-|

__________

| /  Slide up
__________

[Verse 1]

Gm
  Who are you with the lights out?
Gm
  I don't feel right when I'm all alone
   Eb
My human nature makes me a stranger
   Cm
To everyone I know

[Pre-Chorus]

  Gm
I know it's all lies I brought to life
    Eb
Now I don't know how to be someone real
Cm
Hate that I fake the way that I feel



[Chorus]

Eb                  F    Gm
Voices fill my head with noises
                 F
Drain me of this poison
                    F/Bb      F/A
'Cause I'm not who you think I've been
Eb                    F     Gm
Frozen, I'm someone I don't know and
                  F
The cycle's never broken
                 N.C.
And I'll die a silent stranger
Gm                               N.C.
  ('Cause I'm not who you think I've been)

[Verse 2]

Gm
  Feels like I'm hiding in my skin
Gm
  I'm such a coward and they all know
Eb
I'll never let them see my face
Cm
Cover my tracks and run away



[Pre-Chorus]

  Gm
I know it's all lies I brought to life
    Eb
Now I don't know how to be someone real
Cm                              N.C.
Hate that I fake the way that I feel

[Chorus]

Eb                  F    Gm
Voices fill my head with noises
                 F
Drain me of this poison
                    F/Bb      F/A
'Cause I'm not who you think I've been
Eb                    F     Gm
Frozen, I'm someone I don't know and
                  F
The cycle's never broken
                F/Bb     F/A*
And I'll die a silent stranger



[Bridge]

Eb Gm F F
         (And I'll die a si-, and I'll di- di- di-)
Eb                       Gm
Voices fill my head with noises
                 F
Drain me of this poison
         N.C.
And I'll die a silent stranger

[Chorus]

Eb                  F    Gm
Voices fill my head with noises
                 F
Drain me of this poison
                    F/Bb      F/A
'Cause I'm not who you think I've been
Eb                    F     Gm
Frozen, I'm someone I don't know and
                  F
The cycle's never broken
                F/Bb     F/A*
And I'll die a silent stranger

[Outro]

Eb Gm F F
Eb Gm F F

Select your instrument then click on the video please

Sélectionnez votre instrument puis cliquez sur la vidéo svp