Accueil         Home  


         La Musique en Liberté sur Twitter                                


  Contact  

 La Musique en Liberté . COM 





Ghost Hounds
Last Train To Nowhere










 Français: DO	RE	MI	FA	SOL	LA	SI
English:   C	D	E	F	G	A	B

Chordify App is
at the bottom
l'App Chordify est
tout en bas


*    Single Strum
(  ) Designated Riff
 
D5       XX023X
D7/A     X0021X
G/B      X20003
Csus2    X30033
Cadd9/D* XX0010
G/D      XX0003

(G/D)*      (Dm)*       (Csus2)*     (Dm/A)*
e|3----------|1----------|3----------|-----------|
B|0----------|3----------|3----------|-----------|
G|0----------|2----------|0----------|2----------|
D|0----------|0----------|0----------|0--0-0-----|
A|---3-2-0---|---3-2-0---|---3-2-0---|0------3-0-|
E|---------1-|---------1-|---------1-|-----------|

---------------------------------------------------------------



[Intro]
        D5         D7/A      Csus2 G/B  Dm   D5/A Dm     D5 Dm      Csus2 G/B
e|-----------------------------3---3--|-1-1-1-----1-1-1-----1-1-1-----3---3--|
B|------3----------1-----------3---0--|-3-3-3-----3-3-3-----3-3-3-----0---3--|
G|------2----------2---------2-0---0--|-2-2-2--2--2-2-2--2--2-2-2--2--0---0--|
D|3p2---0--0h3p0---0-0-3p2---0-0---0--|-0---0--0--0---0--0--0---0--0--0---0--|
A|----3----------3-0-------3---3---2--|-------------------------------2---3--|
E|------------------------------------|--------------------------------------|

  Dm   D5/A Dm      D5 Dm       G/B Csus2 (Csus2 Dm)                 Dm
e|-1-1-1-----1-1-1-----1-1-1-----3---3--|------------------------------------|
B|-3-3-3-----3-3-3-----3-3-3-----0---3--|------------------------------------|
G|-2-2-2--2--2-2-2--2--2-2-2--2--0---0--|------------------------------------|
D|-0---0--0--0---0--0--0---0--0--0---0--|-----0-----0------0-3p0-------------|
A|-------------------------------2---3--|3b/5---3/5---3b/5-------3-3/5br-----|
E|--------------------------------------|------------------------------------|



[Verse 1]

Dm
Fayetteville gets hot in the summer, and so does Baton Rouge, 
Dm                                                                     (Dm/A)*
Never bothered me much, 'cause I never stayed long, always just passin' through,
Dm
Never did meet my father, never did have no son,
Dm                 Dm*          D5*
So when my time is over, oh, my name is dead and gone

[Chorus]

D5                                                          (G/D)*
I'm on the, last train to nowhere, and it's runnin' right on time
       Dm                                                (G/D)*
I'm in    no rush to get there, riding to the end of the line
Dm                                                      (G/D)*
I'm on the, last train to nowhere, just like I've always been
Dm                                   G/B   C     Dm    (Csus2 Dm)
I was raised and born there, and I'm goin' back again



[Verse 2]

Dm
Loved a dozen women in a dozen ways, but I can't recall their names
Dm
Tried at first to make it last, but all hearts are made to break
Dm
I took my licks at just layin' bricks, and I worked the land for a spell
Dm                         Dm*         D5*
And all I got is what they gave, and a couple good stories to tell  

[Chorus]

            D5                                              (G/D)*
I'm on the, last train to nowhere, and it's runnin' right on time
       Dm                                               (G/D)*
I'm in    no rush to get there, riding to the end of the line
            Dm7                                         (G/D)*
I'm on the, last train to nowhere, just like I've always been
Dm                                   G/B   C     Dm
I was raised and born there, and I'm goin' back again    hey.....

[Instrumental]

Dm     Dm7     Dm    (Dm)*
Dm     Dm7     Dm    (Csus2)*
Dm     Dm      D5    (Dm)*
Dm     Dm      Dm    (Dm)*
D



[Pre-Chorus]

D                                                   Csus2
The people at the station, now how hard she's bound
       Dm                                          Cadd9/D*          Cadd9/D*
It's a one way traffic, no turnin' back. and there ain't no turnin' around!

[Chorus]

            D5                                              (G/D)*
I'm on the, last train to nowhere, and it's runnin' right on time
       Dm                                               (G/D)*
I'm in    no rush to get there, riding to the end of the line
            Dm7                                         (G/D)*
I'm on the, last train to nowhere, just like I've always been
Dm                                   G/B   C     Dm
I was raised and born there, and I'm goin' back again

[Outro]

           D5                                                (G/D)*
I'm on the,  last train to nowhere, and it's runnin' right on time
       Dm                                               (G/D)*
I'm in    no rush to get there, riding to the end of the line
            Dm                                          (G/D)*
I'm on the, last train to nowhere, just like I've always been
Dm                               G   G7/D  Csus2*
I was raised and born there, and I'm goin' back

Select your instrument then click on the video please

Sélectionnez votre instrument puis cliquez sur la vidéo svp