Accueil         Home  


         La Musique en Liberté sur Twitter                         Tweet       

  Contact  

Maître Gims - ft.Sia - Je te pardonne - CHORDS - Partition (Accords et Paroles Lyrics)





♫ Maître Gims - Je te pardonne ft. Sia ♫










Placer un capo en 6


					
MAITRE GIMS - Je te Pardonne



Intro:

   Am                   Am                          
e---------------------------0--|
B------1---------0----------1--|
G----2----2------0----------2--|
D--------------0---0------3----|
A--0---------------------------|
E-----------3----------1-------|

Couplet (à jouer 3 fois)

e—————————————0———————|——————---------------|
B------1---------0----|---------------------|
G----2----2------0----|------2---------2----|
D--------------0---0--|------3---------3----|
A--0------------------|----3---3----3----3--|
E-----------3---------|-1-------------------|


e—————————————0———————|——————0--------------|
B------1---------0----|------1--------------|
G----2----2------0----|------2--------------|
D--------------0---0--|----3----------------|
A--0------------------|---------------------|
E-----------3---------|-1-------------------|

Refrain

e——————0/0—————-—3—————|——————-0----------0------|------1----------0---------------------------
B------1-0-------3-----|-------1----------1------|------3----------1-----------0----------0----
G----2---------0-------|----0-----0----0-----0---|----2---2------2---2---------0----------0----
D----------------------|-------------------------|--0------------------------0---0------0---0--
A--0---------2---------|--3---------3------------|------------0--------------------------------
E----------------3-----|-------------------------|------------------------3----------3---------


Tu m'as demandé pardon j't'ai repoussée (repoussée) 
J'voulais qu'tu comprennes que je souffrais (je souffrais) 
Mais t'as laissé ton odeur sur mes draps (sur mes draps) 
J'donnerais tout pour être dans tes bras (dans tes bras) 

[Maître Gims] 
Et j'ai tenté d'te haïr mais la colère est partie 
J'ai fait d'la place dans on coeur 

[SIA] 
I forgive you, you know not what you have done 
I forgive you, now it's time for me to move on 
I forgive you, you did not see right from wrong 
And I love you, always in my heart you'll live on 
You'll live on 
You'll live on 


[Maître Gims] 
On se croise sans se lancer un regard (un regard) 
Je n'sais quoi dire quand on m'fait la remarque (la remarque) 
Notre entourage tente de nous raisonner (raisonner) 
Je pense qu'il est temps de se retrouver (retrouver) 

[Maître Gims] 
Et j'ai tenté d'te haïr mais la colère est partie 
J'ai fait d'la place dans on coeur 

[SIA] 
I forgive you, you know not what you have done 
I forgive you, now it's time for me to move on 
I forgive you, you did not see right from wrong 
And I love you, always in my heart you'll live on 
You'll live on 
You'll live on