Accueil         Home  


         La Musique en Liberté sur Twitter                         Tweet       

  Contact  

Quiet Riot - Cum On Feel The Noize - Partition (Accords et Paroles Lyrics)





♫ Quiet Riot - Cum On Feel The Noize ♫








Verse:
  
G5                               B5               E5  
So you think I've got a funny face, well I tell you honey  
A5       G5       D5    A5       G5       D5  
I don't know why, I don't know why  
G5                                 B5              E5 
So you say my singing's out of time, well it makes me money  
        A5       G5       D5         A5      G5      D  
And I don't know why, and I don't know why  
  
Bridge: 
  
E5   D5  
Oh no  

Chorus -----------------
 

G5         D/F#(no5)  E5 
Cum on feel the noise  
G5       D/F#(no5)   E5  
Girls rock     the boys  
A5            G5           D5  
We'll get wild wild wild  
A5             G5         D5 
We'll get wild wild wild  


 G5          D/F#(no5)   E5  
Cum on feel the noise  
G       D/F#Ono5)     E5  
Girls rock    your boys  
              C5     B5     A5     G5      D5  
We'll get wild wild wild  


End Chorus -------------
 


Solo 

e|---------------------------------------------------------------------------| 
B|---------------------------------------------------12h14p12----------------| 
G|--------------------------------------12h14p12h140----------14p12h14p12h14-| 
D|--------------------------12h14p12h14--------------------------------------| 
A|--------------12h14p12h14--------------------------------------------------| 
E|-----15p12h15--------------------------------------------------------------| 

e|---------------------------12h15p12----12--15b17--14-15--14h15p14--| 
B|---------------12h15p12h15----------15-----------------------------| 
G|---12h14p12h14-----------------------------------------------------| 
D|-------------------------------------------------------------------| 
A|-------------------------------------------------------------------| 
E|-------------------------------------------------------------------| 

e|-----14----------------------------------------------------------| 
B|-17-----17b19r17-15---12-13-15-13-12-13--12----12----------------| 
G|--------------------------------------------14----14-12-11-12-14-| 
D|-----------------------------------------------------------------| 
A|-----------------------------------------------------------------| 
E|-----------------------------------------------------------------| 

e|-----------------------------------------| 
B|-12-13-15-13-12-13-12-----12-------------| 
G|-----------------------14----14-12b14-12-| 
D|-----------------------------------------| 
A|-----------------------------------------| 
E|-----------------------------------------| 

e|-----15b17-15b17-15b17r15-14-15-15b17-15-14----| 
B|--12----------------------------------------15-| 
G|-----------------------------------------------| (2x) 
D|-----------------------------------------------| 
A|-----------------------------------------------| 
E|-----------------------------------------------| 


e|----17b19-17b19---17b19r17-15-17-17b19-17--15-19p15-15-15-17p15-| 
B|-15-------------------------------------------------------------| 
G|----------------------------------------------------------------| 
D|----------------------------------------------------------------| 
A|----------------------------------------------------------------| 
E|----------------------------------------------------------------| 

e|-15-15-19p15-15-15-15p17---14-14-17p14-15p14-12h15p12----12---------| 
B|------------------------------------------------------15---15b17r15-| 
G|--------------------------------------------------------------------| 
D|--------------------------------------------------------------------| 
A|--------------------------------------------------------------------| 
E|--------------------------------------------------------------------| 

e|------------------------------------------------------------| 
B|------------------------------------------------------------| 
G|----------------------------------12h14p12------------------| 
D|----------------------12h14p12h14----------14p12h14p12h14---| 
A|----------12h14p12h14---------------------------------------| 
E|-15p12h15---------------------------------------------------| 

e|-------------------------12h15p12----12-15b15-15-14h15p14--| 
B|-------------12h15p12h15----------15-----------------------| 
G|-12h14p12h14-----------------------------------------------| 
D|-----------------------------------------------------------| 
A|-----------------------------------------------------------| 
E|-----------------------------------------------------------| 

e|------14h15p14------------17-20b22-| 
B|---17----------17--17/19-----------| 
G|-----------------------------------| 
D|-----------------------------------| 
A|-----------------------------------| 
E|-----------------------------------| 


Acompanhamento: 

e|----------------------------7-8-10-8-7---| 
B|------------------------/10------------8-| 
G|-----4-5-7-5h7p5-4-5---------------------| (2x) 
D|--/7-------------------------------------| 
A|-----------------------------------------| 
E|-----------------------------------------| 

e|-----------------------| 
B|-----------------------| 
G|-----------------------| 
D|---10-9-7\-----10-9-7\-| 
A|-----------------------| 
E|-----------------------| 


 


  G5           B5           E5           A5           D5           D          
  ||||||       ||||||       ||||||       ||||||     5 |o||||       ||||||     
  ||||||       |o||||       |oo|||       ||oo||       ||||||       |||o|o     
  o|||||       ||||||       ||||||       ||||||       ||oo||       ||||o|     
  ||||||       ||oo||       ||||||       ||||||       ||||||       ||||||     
  |oo|||       ||||||       ||||||       ||||||       ||||||       ||||||     


  D/F#(no5)    G            D/F#Ono5     C5                      
  ||||||       ||||||     
  |o||||       ||||||     
  o|||oo       |o||||     
  ||||||       ||||||     
  ||||||       ||oo||